解忧杂货店主题曲:重生

艺术家:容祖儿    查看原文


原调
字大小

变调夹:夹 1 品

解忧杂货店主题曲:重生
演唱:容祖儿
谱:叶大侠


1=D# 4/4
按D调编配,capo = 1

--------------------------------------
----2h3--2----------2h3--2-------3s5--
-----------2-----------------2--------
--------------2s4---------------------
--------------------------------------
--------------------------------------

---------------------------------------
---5s7---5----------5s7--5------8s10---
-------------6--7------------7---------
---5s7---5---7--7---5s7--5-------------
---------------------------------------
---------------------------------------

D    
如果有天
Bm
可以让你选择
Em        G 
人生重来或继续

G   
我不知道
Em
你的答案最后
Bm        A
会是真情或假意
    
    F#m
我希望
        Bm
从蓝天到名利
     Em
所有你想要的
       A
都别随风去
     Bm
告诉我吧
     A
别再沉默如谜
     Bm 
聚散随意
       A
像红尘来去

     Bm 
告诉你吧
      A     G 
我也曾面临这难题
   Em     A      
而你现在看到的
    D
是谜底

间奏:

以下对应人工泛音(7)的位置

-----3--2----------3--2------------
------------3------------3---------
---------------4------------2------
-----------------------------------
-----------------------------------
-----------------------------------


如果有天
可以让你选择
人生重来或继续
我不知道
你的答案最后
会是真情或假意
我希望
从蓝天到名利
所有你想要的
都别随风去
告诉我吧
别再沉默如谜
聚散随意
像红尘来去
告诉你吧
我也曾面临这难题
而你现在看到的
而你现在看到的
现在看到的
是谜底

结束:
                                               D
-----------------------------------------------3-
----2h3--2----------2h3--2-------3s5---5s7-----2-
-----------2-----------------2-----------------3-
--------------2s4------------------------------0-
------------------------------------------------
------------------------------------------------

双击滚动速度: ,值越小越快。

来源:52cmajor.com